「オススメのギターリフ」の編集履歴(バックアップ)一覧はこちら

オススメのギターリフ」の最新版変更点

追加された行は青色になります。

削除された行は赤色になります。

 &bold(){自分で作ったリフとか投稿してけクズ共が}
 
 
 
 【名称】弾いてると鬱になるリフ
 【音】ディストーション
 【推測ジャンル】ゴシック/ドゥームメタル
 【チューニング】EADGBE
 ♪=自由
 4 2-------2------|2---------------| 
 5 2-------2------|2---------------| くり返し 
 6 0-------3------|2---------------| 
 
 
 名称】メンチコア
 【音】ディストーション
 【推測ジャンル】メタル
 【チューニング】DGCFAD 
 ♪=上に同じ
 ※最後のスウィープだけここ(http://www.one-0.com/mattias-ia-eklundh.html)の
 一番上の動画ぐらいの速度でやんなきゃ死ね
 あとpmなんたらはブリッジミュート、phはピッキングハーモニクスとなっております
 新型のフレットじゃなくてごめんね
 1 ----------------------------------------------------------------16--------------------
 2 ------------------------------------------------------------------15------------------
 3------------------------------------------------------------------------14-------------
 4 --------------------------------------------------------------------------14----------
 5 ----pm2----------pm10-------------pm2--------pm10--------------15---------------------
 6 -pm5-----4---pm9--------ph5~----pm5-----4--pm9------------------16^14----------------
 
 
 【名称】ただのコード分解でも癖になる
 【音】クリーンとかアコシミュかけたり
 【推測ジャンル】エロゲのBGMにありそう
 【チューニング】EADGBE
 ♪=適当
-3 ------4-------4---------4-------
-4 --------5-------5-----5---------
+3 ------4-------4-------4---------
+4 --------5-------5-------5-------
 5 ----5-------5-------5-----------
 6 --3-------3-------3-------------
 
 これを繰り返してろ